ISO-10303-21;
HEADER;
/* Generated by software containing ST-Developer
 * from STEP Tools, Inc. (www.steptools.com) 
 */

FILE_DESCRIPTION(
/* description */ (''),
/* implementation_level */ '2;1');

FILE_NAME(
/* name */ 'J:\\Michael\\3D tekeningen\\Standaarddempers\\Hd\\HD 02 G.
stp',
/* time_stamp */ '2014-10-13T16:04:26+02:00',
/* author */ ('Tekenkamer'),
/* organization */ (''),
/* preprocessor_version */ 'ST-DEVELOPER v15.6',
/* originating_system */ 'Autodesk Inventor 2015',
/* authorisation */ '');

FILE_SCHEMA (('AUTOMOTIVE_DESIGN { 1 0 10303 214 3 1 1 }'));
ENDSEC;

DATA;
#10=MECHANICAL_DESIGN_GEOMETRIC_PRESENTATION_REPRESENTATION('',(#32,#33,
#34,#35),#433);
#11=ITEM_DEFINED_TRANSFORMATION($,$,#240,#279);
#12=ITEM_DEFINED_TRANSFORMATION($,$,#265,#280);
#13=ITEM_DEFINED_TRANSFORMATION($,$,#265,#281);
#14=(
REPRESENTATION_RELATIONSHIP($,$,#446,#448)
REPRESENTATION_RELATIONSHIP_WITH_TRANSFORMATION(#11)
SHAPE_REPRESENTATION_RELATIONSHIP()
);
#15=(
REPRESENTATION_RELATIONSHIP($,$,#447,#448)
REPRESENTATION_RELATIONSHIP_WITH_TRANSFORMATION(#12)
SHAPE_REPRESENTATION_RELATIONSHIP()
);
#16=(
REPRESENTATION_RELATIONSHIP($,$,#447,#448)
REPRESENTATION_RELATIONSHIP_WITH_TRANSFORMATION(#13)
SHAPE_REPRESENTATION_RELATIONSHIP()
);
#17=CONTEXT_DEPENDENT_SHAPE_REPRESENTATION(#14,#443);
#18=CONTEXT_DEPENDENT_SHAPE_REPRESENTATION(#15,#444);
#19=CONTEXT_DEPENDENT_SHAPE_REPRESENTATION(#16,#445);
#20=NEXT_ASSEMBLY_USAGE_OCCURRENCE('MAAT3D:1','MAAT3D:1','MAAT3D:1',#452,
#450,'MAAT3D:1');
#21=NEXT_ASSEMBLY_USAGE_OCCURRENCE('JIS B 2302 Long Nipple 2 x 150:1',
'JIS B 2302 Long Nipple 2 x 150:1','JIS B 2302 Long Nipple 2 x 150:1',#452,
#451,'JIS B 2302 Long Nipple 2 x 150:1');
#22=NEXT_ASSEMBLY_USAGE_OCCURRENCE('JIS B 2302 Long Nipple 2 x 150:2',
'JIS B 2302 Long Nipple 2 x 150:2','JIS B 2302 Long Nipple 2 x 150:2',#452,
#451,'JIS B 2302 Long Nipple 2 x 150:2');
#23=CONICAL_SURFACE('',#271,29.6760625,1.78991060824607);
#24=CONICAL_SURFACE('',#275,29.6760625,1.78991060824607);
#25=DIMENSIONAL_EXPONENTS(0.,0.,0.,0.,0.,0.,0.);
#26=(
CONVERSION_BASED_UNIT('degree',#27)
NAMED_UNIT(#25)
PLANE_ANGLE_UNIT()
);
#27=PLANE_ANGLE_MEASURE_WITH_UNIT(PLANE_ANGLE_MEASURE(0.01745329252),#436);
#28=SHAPE_REPRESENTATION_RELATIONSHIP('SRR','None',#446,#30);
#29=SHAPE_REPRESENTATION_RELATIONSHIP('SRR','None',#447,#31);
#30=ADVANCED_BREP_SHAPE_REPRESENTATION($,(#36,#37,#38),#430);
#31=ADVANCED_BREP_SHAPE_REPRESENTATION($,(#39),#431);
#32=STYLED_ITEM('',(#466),#36);
#33=STYLED_ITEM('',(#466),#37);
#34=STYLED_ITEM('',(#466),#38);
#35=STYLED_ITEM('',(#467),#39);
#36=MANIFOLD_SOLID_BREP('EINDSCHOT',#236);
#37=MANIFOLD_SOLID_BREP('EINDSCHOT_1',#237);
#38=MANIFOLD_SOLID_BREP('ROMP',#238);
#39=MANIFOLD_SOLID_BREP('Solid1',#239);
#40=PLANE('',#247);
#41=PLANE('',#248);
#42=PLANE('',#255);
#43=PLANE('',#256);
#44=PLANE('',#263);
#45=PLANE('',#264);
#46=PLANE('',#269);
#47=PLANE('',#277);
#48=FACE_BOUND('',#85,.T.);
#49=FACE_BOUND('',#87,.T.);
#50=FACE_BOUND('',#89,.T.);
#51=FACE_BOUND('',#91,.T.);
#52=FACE_BOUND('',#93,.T.);
#53=FACE_BOUND('',#95,.T.);
#54=FACE_BOUND('',#97,.T.);
#55=FACE_BOUND('',#99,.T.);
#56=FACE_BOUND('',#101,.T.);
#57=FACE_BOUND('',#103,.T.);
#58=FACE_BOUND('',#105,.T.);
#59=FACE_BOUND('',#107,.T.);
#60=FACE_BOUND('',#109,.T.);
#61=FACE_BOUND('',#111,.T.);
#62=FACE_BOUND('',#113,.T.);
#63=FACE_BOUND('',#115,.T.);
#64=FACE_BOUND('',#117,.T.);
#65=FACE_BOUND('',#119,.T.);
#66=FACE_OUTER_BOUND('',#84,.T.);
#67=FACE_OUTER_BOUND('',#86,.T.);
#68=FACE_OUTER_BOUND('',#88,.T.);
#69=FACE_OUTER_BOUND('',#90,.T.);
#70=FACE_OUTER_BOUND('',#92,.T.);
#71=FACE_OUTER_BOUND('',#94,.T.);
#72=FACE_OUTER_BOUND('',#96,.T.);
#73=FACE_OUTER_BOUND('',#98,.T.);
#74=FACE_OUTER_BOUND('',#100,.T.);
#75=FACE_OUTER_BOUND('',#102,.T.);
#76=FACE_OUTER_BOUND('',#104,.T.);
#77=FACE_OUTER_BOUND('',#106,.T.);
#78=FACE_OUTER_BOUND('',#108,.T.);
#79=FACE_OUTER_BOUND('',#110,.T.);
#80=FACE_OUTER_BOUND('',#112,.T.);
#81=FACE_OUTER_BOUND('',#114,.T.);
#82=FACE_OUTER_BOUND('',#116,.T.);
#83=FACE_OUTER_BOUND('',#118,.T.);
#84=EDGE_LOOP('',(#174));
#85=EDGE_LOOP('',(#175));
#86=EDGE_LOOP('',(#176));
#87=EDGE_LOOP('',(#177));
#88=EDGE_LOOP('',(#178));
#89=EDGE_LOOP('',(#179));
#90=EDGE_LOOP('',(#180));
#91=EDGE_LOOP('',(#181));
#92=EDGE_LOOP('',(#182));
#93=EDGE_LOOP('',(#183));
#94=EDGE_LOOP('',(#184));
#95=EDGE_LOOP('',(#185));
#96=EDGE_LOOP('',(#186));
#97=EDGE_LOOP('',(#187));
#98=EDGE_LOOP('',(#188));
#99=EDGE_LOOP('',(#189));
#100=EDGE_LOOP('',(#190));
#101=EDGE_LOOP('',(#191));
#102=EDGE_LOOP('',(#192));
#103=EDGE_LOOP('',(#193));
#104=EDGE_LOOP('',(#194));
#105=EDGE_LOOP('',(#195));
#106=EDGE_LOOP('',(#196));
#107=EDGE_LOOP('',(#197));
#108=EDGE_LOOP('',(#198));
#109=EDGE_LOOP('',(#199));
#110=EDGE_LOOP('',(#200));
#111=EDGE_LOOP('',(#201));
#112=EDGE_LOOP('',(#202));
#113=EDGE_LOOP('',(#203));
#114=EDGE_LOOP('',(#204));
#115=EDGE_LOOP('',(#205));
#116=EDGE_LOOP('',(#206));
#117=EDGE_LOOP('',(#207));
#118=EDGE_LOOP('',(#208));
#119=EDGE_LOOP('',(#209));
#120=CIRCLE('',#242,31.15);
#121=CIRCLE('',#243,31.15);
#122=CIRCLE('',#245,72.5);
#123=CIRCLE('',#246,72.5);
#124=CIRCLE('',#250,31.15);
#125=CIRCLE('',#251,31.15);
#126=CIRCLE('',#253,72.5);
#127=CIRCLE('',#254,72.5);
#128=CIRCLE('',#258,63.5);
#129=CIRCLE('',#259,63.5);
#130=CIRCLE('',#261,66.5);
#131=CIRCLE('',#262,66.5);
#132=CIRCLE('',#267,26.45);
#133=CIRCLE('',#268,26.45);
#134=CIRCLE('',#270,29.31075);
#135=CIRCLE('',#272,30.041375);
#136=CIRCLE('',#274,30.041375);
#137=CIRCLE('',#276,29.31075);
#138=VERTEX_POINT('',#368);
#139=VERTEX_POINT('',#370);
#140=VERTEX_POINT('',#373);
#141=VERTEX_POINT('',#375);
#142=VERTEX_POINT('',#380);
#143=VERTEX_POINT('',#382);
#144=VERTEX_POINT('',#385);
#145=VERTEX_POINT('',#387);
#146=VERTEX_POINT('',#392);
#147=VERTEX_POINT('',#394);
#148=VERTEX_POINT('',#397);
#149=VERTEX_POINT('',#399);
#150=VERTEX_POINT('',#405);
#151=VERTEX_POINT('',#407);
#152=VERTEX_POINT('',#410);
#153=VERTEX_POINT('',#413);
#154=VERTEX_POINT('',#416);
#155=VERTEX_POINT('',#419);
#156=EDGE_CURVE('',#138,#138,#120,.T.);
#157=EDGE_CURVE('',#139,#139,#121,.T.);
#158=EDGE_CURVE('',#140,#140,#122,.T.);
#159=EDGE_CURVE('',#141,#141,#123,.T.);
#160=EDGE_CURVE('',#142,#142,#124,.T.);
#161=EDGE_CURVE('',#143,#143,#125,.T.);
#162=EDGE_CURVE('',#144,#144,#126,.T.);
#163=EDGE_CURVE('',#145,#145,#127,.T.);
#164=EDGE_CURVE('',#146,#146,#128,.T.);
#165=EDGE_CURVE('',#147,#147,#129,.T.);
#166=EDGE_CURVE('',#148,#148,#130,.T.);
#167=EDGE_CURVE('',#149,#149,#131,.T.);
#168=EDGE_CURVE('',#150,#150,#132,.T.);
#169=EDGE_CURVE('',#151,#151,#133,.T.);
#170=EDGE_CURVE('',#152,#152,#134,.T.);
#171=EDGE_CURVE('',#153,#153,#135,.T.);
#172=EDGE_CURVE('',#154,#154,#136,.T.);
#173=EDGE_CURVE('',#155,#155,#137,.T.);
#174=ORIENTED_EDGE('',*,*,#156,.F.);
#175=ORIENTED_EDGE('',*,*,#157,.F.);
#176=ORIENTED_EDGE('',*,*,#158,.T.);
#177=ORIENTED_EDGE('',*,*,#159,.F.);
#178=ORIENTED_EDGE('',*,*,#158,.F.);
#179=ORIENTED_EDGE('',*,*,#156,.T.);
#180=ORIENTED_EDGE('',*,*,#159,.T.);
#181=ORIENTED_EDGE('',*,*,#157,.T.);
#182=ORIENTED_EDGE('',*,*,#160,.F.);
#183=ORIENTED_EDGE('',*,*,#161,.F.);
#184=ORIENTED_EDGE('',*,*,#162,.T.);
#185=ORIENTED_EDGE('',*,*,#163,.F.);
#186=ORIENTED_EDGE('',*,*,#162,.F.);
#187=ORIENTED_EDGE('',*,*,#160,.T.);
#188=ORIENTED_EDGE('',*,*,#163,.T.);
#189=ORIENTED_EDGE('',*,*,#161,.T.);
#190=ORIENTED_EDGE('',*,*,#164,.F.);
#191=ORIENTED_EDGE('',*,*,#165,.F.);
#192=ORIENTED_EDGE('',*,*,#166,.T.);
#193=ORIENTED_EDGE('',*,*,#167,.F.);
#194=ORIENTED_EDGE('',*,*,#166,.F.);
#195=ORIENTED_EDGE('',*,*,#164,.T.);
#196=ORIENTED_EDGE('',*,*,#167,.T.);
#197=ORIENTED_EDGE('',*,*,#165,.T.);
#198=ORIENTED_EDGE('',*,*,#168,.F.);
#199=ORIENTED_EDGE('',*,*,#169,.T.);
#200=ORIENTED_EDGE('',*,*,#170,.F.);
#201=ORIENTED_EDGE('',*,*,#168,.T.);
#202=ORIENTED_EDGE('',*,*,#171,.F.);
#203=ORIENTED_EDGE('',*,*,#170,.T.);
#204=ORIENTED_EDGE('',*,*,#172,.F.);
#205=ORIENTED_EDGE('',*,*,#171,.T.);
#206=ORIENTED_EDGE('',*,*,#173,.F.);
#207=ORIENTED_EDGE('',*,*,#172,.T.);
#208=ORIENTED_EDGE('',*,*,#173,.T.);
#209=ORIENTED_EDGE('',*,*,#169,.F.);
#210=CYLINDRICAL_SURFACE('',#241,31.15);
#211=CYLINDRICAL_SURFACE('',#244,72.5);
#212=CYLINDRICAL_SURFACE('',#249,31.15);
#213=CYLINDRICAL_SURFACE('',#252,72.5);
#214=CYLINDRICAL_SURFACE('',#257,63.5);
#215=CYLINDRICAL_SURFACE('',#260,66.5);
#216=CYLINDRICAL_SURFACE('',#266,26.45);
#217=CYLINDRICAL_SURFACE('',#273,30.041375);
#218=ADVANCED_FACE('',(#66,#48),#210,.F.);
#219=ADVANCED_FACE('',(#67,#49),#211,.T.);
#220=ADVANCED_FACE('',(#68,#50),#40,.F.);
#221=ADVANCED_FACE('',(#69,#51),#41,.T.);
#222=ADVANCED_FACE('',(#70,#52),#212,.F.);
#223=ADVANCED_FACE('',(#71,#53),#213,.T.);
#224=ADVANCED_FACE('',(#72,#54),#42,.F.);
#225=ADVANCED_FACE('',(#73,#55),#43,.T.);
#226=ADVANCED_FACE('',(#74,#56),#214,.F.);
#227=ADVANCED_FACE('',(#75,#57),#215,.T.);
#228=ADVANCED_FACE('',(#76,#58),#44,.F.);
#229=ADVANCED_FACE('',(#77,#59),#45,.T.);
#230=ADVANCED_FACE('',(#78,#60),#216,.F.);
#231=ADVANCED_FACE('',(#79,#61),#46,.T.);
#232=ADVANCED_FACE('',(#80,#62),#23,.T.);
#233=ADVANCED_FACE('',(#81,#63),#217,.T.);
#234=ADVANCED_FACE('',(#82,#64),#24,.T.);
#235=ADVANCED_FACE('',(#83,#65),#47,.T.);
#236=CLOSED_SHELL('',(#218,#219,#220,#221));
#237=CLOSED_SHELL('',(#222,#223,#224,#225));
#238=CLOSED_SHELL('',(#226,#227,#228,#229));
#239=CLOSED_SHELL('',(#230,#231,#232,#233,#234,#235));
#240=AXIS2_PLACEMENT_3D('placement',#366,#282,#283);
#241=AXIS2_PLACEMENT_3D('',#367,#284,#285);
#242=AXIS2_PLACEMENT_3D('',#369,#286,#287);
#243=AXIS2_PLACEMENT_3D('',#371,#288,#289);
#244=AXIS2_PLACEMENT_3D('',#372,#290,#291);
#245=AXIS2_PLACEMENT_3D('',#374,#292,#293);
#246=AXIS2_PLACEMENT_3D('',#376,#294,#295);
#247=AXIS2_PLACEMENT_3D('',#377,#296,#297);
#248=AXIS2_PLACEMENT_3D('',#378,#298,#299);
#249=AXIS2_PLACEMENT_3D('',#379,#300,#301);
#250=AXIS2_PLACEMENT_3D('',#381,#302,#303);
#251=AXIS2_PLACEMENT_3D('',#383,#304,#305);
#252=AXIS2_PLACEMENT_3D('',#384,#306,#307);
#253=AXIS2_PLACEMENT_3D('',#386,#308,#309);
#254=AXIS2_PLACEMENT_3D('',#388,#310,#311);
#255=AXIS2_PLACEMENT_3D('',#389,#312,#313);
#256=AXIS2_PLACEMENT_3D('',#390,#314,#315);
#257=AXIS2_PLACEMENT_3D('',#391,#316,#317);
#258=AXIS2_PLACEMENT_3D('',#393,#318,#319);
#259=AXIS2_PLACEMENT_3D('',#395,#320,#321);
#260=AXIS2_PLACEMENT_3D('',#396,#322,#323);
#261=AXIS2_PLACEMENT_3D('',#398,#324,#325);
#262=AXIS2_PLACEMENT_3D('',#400,#326,#327);
#263=AXIS2_PLACEMENT_3D('',#401,#328,#329);
#264=AXIS2_PLACEMENT_3D('',#402,#330,#331);
#265=AXIS2_PLACEMENT_3D('placement',#403,#332,#333);
#266=AXIS2_PLACEMENT_3D('',#404,#334,#335);
#267=AXIS2_PLACEMENT_3D('',#406,#336,#337);
#268=AXIS2_PLACEMENT_3D('',#408,#338,#339);
#269=AXIS2_PLACEMENT_3D('',#409,#340,#341);
#270=AXIS2_PLACEMENT_3D('',#411,#342,#343);
#271=AXIS2_PLACEMENT_3D('',#412,#344,#345);
#272=AXIS2_PLACEMENT_3D('',#414,#346,#347);
#273=AXIS2_PLACEMENT_3D('',#415,#348,#349);
#274=AXIS2_PLACEMENT_3D('',#417,#350,#351);
#275=AXIS2_PLACEMENT_3D('',#418,#352,#353);
#276=AXIS2_PLACEMENT_3D('',#420,#354,#355);
#277=AXIS2_PLACEMENT_3D('',#421,#356,#357);
#278=AXIS2_PLACEMENT_3D('placement',#422,#358,#359);
#279=AXIS2_PLACEMENT_3D('',#423,#360,#361);
#280=AXIS2_PLACEMENT_3D('',#424,#362,#363);
#281=AXIS2_PLACEMENT_3D('',#425,#364,#365);
#282=DIRECTION('axis',(0.,0.,1.));
#283=DIRECTION('refdir',(1.,0.,0.));
#284=DIRECTION('center_axis',(0.,0.,1.));
#285=DIRECTION('ref_axis',(-1.,0.,0.));
#286=DIRECTION('center_axis',(0.,0.,-1.));
#287=DIRECTION('ref_axis',(-1.,0.,0.));
#288=DIRECTION('center_axis',(0.,0.,1.));
#289=DIRECTION('ref_axis',(-1.,0.,0.));
#290=DIRECTION('center_axis',(0.,0.,1.));
#291=DIRECTION('ref_axis',(-1.,0.,0.));
#292=DIRECTION('center_axis',(0.,0.,-1.));
#293=DIRECTION('ref_axis',(-1.,0.,0.));
#294=DIRECTION('center_axis',(0.,0.,-1.));
#295=DIRECTION('ref_axis',(-1.,0.,0.));
#296=DIRECTION('center_axis',(0.,0.,-1.));
#297=DIRECTION('ref_axis',(-1.,0.,0.));
#298=DIRECTION('center_axis',(0.,0.,-1.));
#299=DIRECTION('ref_axis',(-1.,0.,0.));
#300=DIRECTION('center_axis',(0.,0.,1.));
#301=DIRECTION('ref_axis',(-1.,0.,0.));
#302=DIRECTION('center_axis',(0.,0.,-1.));
#303=DIRECTION('ref_axis',(-1.,0.,0.));
#304=DIRECTION('center_axis',(0.,0.,1.));
#305=DIRECTION('ref_axis',(-1.,0.,0.));
#306=DIRECTION('center_axis',(0.,0.,1.));
#307=DIRECTION('ref_axis',(-1.,0.,0.));
#308=DIRECTION('center_axis',(0.,0.,-1.));
#309=DIRECTION('ref_axis',(-1.,0.,0.));
#310=DIRECTION('center_axis',(0.,0.,-1.));
#311=DIRECTION('ref_axis',(-1.,0.,0.));
#312=DIRECTION('center_axis',(0.,0.,-1.));
#313=DIRECTION('ref_axis',(-1.,0.,0.));
#314=DIRECTION('center_axis',(0.,0.,-1.));
#315=DIRECTION('ref_axis',(-1.,0.,0.));
#316=DIRECTION('center_axis',(0.,0.,1.));
#317=DIRECTION('ref_axis',(-1.,0.,0.));
#318=DIRECTION('center_axis',(0.,0.,-1.));
#319=DIRECTION('ref_axis',(-1.,0.,0.));
#320=DIRECTION('center_axis',(0.,0.,1.));
#321=DIRECTION('ref_axis',(-1.,0.,0.));
#322=DIRECTION('center_axis',(0.,0.,1.));
#323=DIRECTION('ref_axis',(-1.,0.,0.));
#324=DIRECTION('center_axis',(0.,0.,-1.));
#325=DIRECTION('ref_axis',(-1.,0.,0.));
#326=DIRECTION('center_axis',(0.,0.,-1.));
#327=DIRECTION('ref_axis',(-1.,0.,0.));
#328=DIRECTION('center_axis',(0.,0.,-1.));
#329=DIRECTION('ref_axis',(-1.,0.,0.));
#330=DIRECTION('center_axis',(0.,0.,-1.));
#331=DIRECTION('ref_axis',(-1.,0.,0.));
#332=DIRECTION('axis',(0.,0.,1.));
#333=DIRECTION('refdir',(1.,0.,0.));
#334=DIRECTION('center_axis',(1.,6.12323399573677E-17,0.));
#335=DIRECTION('ref_axis',(0.,1.,0.));
#336=DIRECTION('center_axis',(1.,6.12323399573677E-17,0.));
#337=DIRECTION('ref_axis',(0.,1.,0.));
#338=DIRECTION('center_axis',(1.,6.12323399573677E-17,0.));
#339=DIRECTION('ref_axis',(0.,1.,0.));
#340=DIRECTION('center_axis',(-1.,-6.12323399573677E-17,0.));
#341=DIRECTION('ref_axis',(0.,0.,1.));
#342=DIRECTION('center_axis',(1.,6.12323399573677E-17,0.));
#343=DIRECTION('ref_axis',(0.,1.,0.));
#344=DIRECTION('center_axis',(1.,6.12323399573677E-17,0.));
#345=DIRECTION('ref_axis',(0.,1.,0.));
#346=DIRECTION('center_axis',(1.,6.12323399573677E-17,0.));
#347=DIRECTION('ref_axis',(0.,1.,0.));
#348=DIRECTION('center_axis',(1.,6.12323399573677E-17,0.));
#349=DIRECTION('ref_axis',(0.,1.,0.));
#350=DIRECTION('center_axis',(1.,6.12323399573677E-17,0.));
#351=DIRECTION('ref_axis',(0.,1.,0.));
#352=DIRECTION('center_axis',(-1.,-6.12323399573677E-17,0.));
#353=DIRECTION('ref_axis',(0.,1.,0.));
#354=DIRECTION('center_axis',(1.,6.12323399573677E-17,0.));
#355=DIRECTION('ref_axis',(0.,1.,0.));
#356=DIRECTION('center_axis',(1.,6.12323399573677E-17,0.));
#357=DIRECTION('ref_axis',(0.,0.,-1.));
#358=DIRECTION('axis',(0.,0.,1.));
#359=DIRECTION('refdir',(1.,0.,0.));
#360=DIRECTION('',(0.,0.,1.));
#361=DIRECTION('',(1.,0.,0.));
#362=DIRECTION('',(1.,0.,0.));
#363=DIRECTION('',(0.,6.12323399573677E-17,1.));
#364=DIRECTION('',(1.,0.,0.));
#365=DIRECTION('',(0.,-6.12323399573677E-17,-1.));
#366=CARTESIAN_POINT('',(0.,0.,0.));
#367=CARTESIAN_POINT('Origin',(0.,0.,-3.));
#368=CARTESIAN_POINT('',(31.15,0.,0.));
#369=CARTESIAN_POINT('Origin',(0.,0.,0.));
#370=CARTESIAN_POINT('',(31.15,0.,-3.));
#371=CARTESIAN_POINT('Origin',(0.,0.,-3.));
#372=CARTESIAN_POINT('Origin',(0.,0.,-3.));
#373=CARTESIAN_POINT('',(72.5,0.,0.));
#374=CARTESIAN_POINT('Origin',(0.,0.,0.));
#375=CARTESIAN_POINT('',(72.5,0.,-3.));
#376=CARTESIAN_POINT('Origin',(0.,0.,-3.));
#377=CARTESIAN_POINT('Origin',(0.,0.,0.));
#378=CARTESIAN_POINT('Origin',(0.,0.,-3.));
#379=CARTESIAN_POINT('Origin',(0.,0.,896.));
#380=CARTESIAN_POINT('',(31.15,0.,899.));
#381=CARTESIAN_POINT('Origin',(0.,0.,899.));
#382=CARTESIAN_POINT('',(31.15,0.,896.));
#383=CARTESIAN_POINT('Origin',(0.,0.,896.));
#384=CARTESIAN_POINT('Origin',(0.,0.,896.));
#385=CARTESIAN_POINT('',(72.5,0.,899.));
#386=CARTESIAN_POINT('Origin',(0.,0.,899.));
#387=CARTESIAN_POINT('',(72.5,0.,896.));
#388=CARTESIAN_POINT('Origin',(0.,0.,896.));
#389=CARTESIAN_POINT('Origin',(0.,0.,899.));
#390=CARTESIAN_POINT('Origin',(0.,0.,896.));
#391=CARTESIAN_POINT('Origin',(0.,0.,0.));
#392=CARTESIAN_POINT('',(63.5,0.,896.));
#393=CARTESIAN_POINT('Origin',(0.,0.,896.));
#394=CARTESIAN_POINT('',(63.5,0.,0.));
#395=CARTESIAN_POINT('Origin',(0.,0.,0.));
#396=CARTESIAN_POINT('Origin',(0.,0.,0.));
#397=CARTESIAN_POINT('',(66.5,0.,896.));
#398=CARTESIAN_POINT('Origin',(0.,0.,896.));
#399=CARTESIAN_POINT('',(66.5,0.,0.));
#400=CARTESIAN_POINT('Origin',(0.,0.,0.));
#401=CARTESIAN_POINT('Origin',(0.,0.,896.));
#402=CARTESIAN_POINT('Origin',(0.,0.,0.));
#403=CARTESIAN_POINT('',(0.,0.,0.));
#404=CARTESIAN_POINT('Origin',(75.,4.59242549680257E-15,0.));
#405=CARTESIAN_POINT('',(-2.22044604925031E-15,26.45,0.));
#406=CARTESIAN_POINT('Origin',(0.,-1.97215226305253E-30,0.));
#407=CARTESIAN_POINT('',(150.,26.45,0.));
#408=CARTESIAN_POINT('Origin',(150.,9.18485099360515E-15,0.));
#409=CARTESIAN_POINT('Origin',(-2.22045427235364E-15,27.880375,0.));
#410=CARTESIAN_POINT('',(-2.22046249545697E-15,29.31075,0.));
#411=CARTESIAN_POINT('Origin',(0.,-1.97215226305253E-30,0.));
#412=CARTESIAN_POINT('Origin',(11.69,7.15806054101628E-16,0.));
#413=CARTESIAN_POINT('',(23.38,30.041375,0.));
#414=CARTESIAN_POINT('Origin',(23.38,1.43161210820326E-15,0.));
#415=CARTESIAN_POINT('Origin',(75.,4.59242549680257E-15,0.));
#416=CARTESIAN_POINT('',(126.62,30.041375,0.));
#417=CARTESIAN_POINT('Origin',(126.62,7.75323888540189E-15,0.));
#418=CARTESIAN_POINT('Origin',(138.31,8.46904493950352E-15,0.));
#419=CARTESIAN_POINT('',(150.,29.31075,0.));
#420=CARTESIAN_POINT('Origin',(150.,9.18485099360515E-15,0.));
#421=CARTESIAN_POINT('Origin',(150.,27.880375,0.));
#422=CARTESIAN_POINT('',(0.,0.,0.));
#423=CARTESIAN_POINT('',(-11.9524403725831,9.10513136094795,-448.));
#424=CARTESIAN_POINT('',(-11.9524403725831,9.10513136094795,340.));
#425=CARTESIAN_POINT('',(-11.9524403725831,9.10513136094795,-340.));
#426=UNCERTAINTY_MEASURE_WITH_UNIT(LENGTH_MEASURE(0.01),#434,
'DISTANCE_ACCURACY_VALUE',
'Maximum model space distance between geometric entities at asserted c
onnectivities');
#427=UNCERTAINTY_MEASURE_WITH_UNIT(LENGTH_MEASURE(0.01),#434,
'DISTANCE_ACCURACY_VALUE',
'Maximum model space distance between geometric entities at asserted c
onnectivities');
#428=UNCERTAINTY_MEASURE_WITH_UNIT(LENGTH_MEASURE(0.01),#434,
'DISTANCE_ACCURACY_VALUE',
'Maximum model space distance between geometric entities at asserted c
onnectivities');
#429=UNCERTAINTY_MEASURE_WITH_UNIT(LENGTH_MEASURE(1.E-6),#434,
'DISTANCE_ACCURACY_VALUE',
'Maximum model space distance between geometric entities at asserted c
onnectivities');
#430=(
GEOMETRIC_REPRESENTATION_CONTEXT(3)
GLOBAL_UNCERTAINTY_ASSIGNED_CONTEXT((#426))
GLOBAL_UNIT_ASSIGNED_CONTEXT((#434,#436,#435))
REPRESENTATION_CONTEXT('','3D')
);
#431=(
GEOMETRIC_REPRESENTATION_CONTEXT(3)
GLOBAL_UNCERTAINTY_ASSIGNED_CONTEXT((#427))
GLOBAL_UNIT_ASSIGNED_CONTEXT((#434,#26,#435))
REPRESENTATION_CONTEXT('','3D')
);
#432=(
GEOMETRIC_REPRESENTATION_CONTEXT(3)
GLOBAL_UNCERTAINTY_ASSIGNED_CONTEXT((#428))
GLOBAL_UNIT_ASSIGNED_CONTEXT((#434,#26,#435))
REPRESENTATION_CONTEXT('','3D')
);
#433=(
GEOMETRIC_REPRESENTATION_CONTEXT(3)
GLOBAL_UNCERTAINTY_ASSIGNED_CONTEXT((#429))
GLOBAL_UNIT_ASSIGNED_CONTEXT((#434,#26,#435))
REPRESENTATION_CONTEXT('','3D')
);
#434=(
LENGTH_UNIT()
NAMED_UNIT(*)
SI_UNIT(.MILLI.,.METRE.)
);
#435=(
NAMED_UNIT(*)
SI_UNIT($,.STERADIAN.)
SOLID_ANGLE_UNIT()
);
#436=(
NAMED_UNIT(*)
PLANE_ANGLE_UNIT()
SI_UNIT($,.RADIAN.)
);
#437=SHAPE_DEFINITION_REPRESENTATION(#440,#446);
#438=SHAPE_DEFINITION_REPRESENTATION(#441,#447);
#439=SHAPE_DEFINITION_REPRESENTATION(#442,#448);
#440=PRODUCT_DEFINITION_SHAPE('',$,#450);
#441=PRODUCT_DEFINITION_SHAPE('',$,#451);
#442=PRODUCT_DEFINITION_SHAPE('',$,#452);
#443=PRODUCT_DEFINITION_SHAPE($,$,#20);
#444=PRODUCT_DEFINITION_SHAPE($,$,#21);
#445=PRODUCT_DEFINITION_SHAPE($,$,#22);
#446=SHAPE_REPRESENTATION('',(#240),#430);
#447=SHAPE_REPRESENTATION('',(#265),#431);
#448=SHAPE_REPRESENTATION('',(#278,#279,#280,#281),#432);
#449=PRODUCT_DEFINITION_CONTEXT('part definition',#460,'design');
#450=PRODUCT_DEFINITION('MAAT3D','MAAT3D',#453,#449);
#451=PRODUCT_DEFINITION('JIS B 2302 Long Nipple 2 x 150',
'JIS B 2302 Long Nipple 2 x 150',#454,#449);
#452=PRODUCT_DEFINITION('Assembly9','Assembly9',#455,#449);
#453=PRODUCT_DEFINITION_FORMATION('',$,#462);
#454=PRODUCT_DEFINITION_FORMATION('',$,#463);
#455=PRODUCT_DEFINITION_FORMATION('',$,#464);
#456=PRODUCT_RELATED_PRODUCT_CATEGORY('MAAT3D','MAAT3D',(#462));
#457=PRODUCT_RELATED_PRODUCT_CATEGORY('JIS B 2302 Long Nipple 2 x 150',
'JIS B 2302 Long Nipple 2 x 150',(#463));
#458=PRODUCT_RELATED_PRODUCT_CATEGORY('Assembly9','Assembly9',(#464));
#459=APPLICATION_PROTOCOL_DEFINITION('international standard',
'automotive_design',2009,#460);
#460=APPLICATION_CONTEXT(
'Core Data for Automotive Mechanical Design Process');
#461=PRODUCT_CONTEXT('part definition',#460,'mechanical');
#462=PRODUCT('MAAT3D','MAAT3D',$,(#461));
#463=PRODUCT('JIS B 2302 Long Nipple 2 x 150',
'JIS B 2302 Long Nipple 2 x 150',$,(#461));
#464=PRODUCT('Assembly9','Assembly9',$,(#461));
#465=PRESENTATION_STYLE_ASSIGNMENT((#468));
#466=PRESENTATION_STYLE_ASSIGNMENT((#469));
#467=PRESENTATION_STYLE_ASSIGNMENT((#470));
#468=SURFACE_STYLE_USAGE(.BOTH.,#471);
#469=SURFACE_STYLE_USAGE(.BOTH.,#472);
#470=SURFACE_STYLE_USAGE(.BOTH.,#473);
#471=SURFACE_SIDE_STYLE($,(#474));
#472=SURFACE_SIDE_STYLE($,(#475));
#473=SURFACE_SIDE_STYLE($,(#476));
#474=SURFACE_STYLE_FILL_AREA(#477);
#475=SURFACE_STYLE_FILL_AREA(#478);
#476=SURFACE_STYLE_FILL_AREA(#479);
#477=FILL_AREA_STYLE($,(#480));
#478=FILL_AREA_STYLE($,(#481));
#479=FILL_AREA_STYLE($,(#482));
#480=FILL_AREA_STYLE_COLOUR($,#483);
#481=FILL_AREA_STYLE_COLOUR($,#484);
#482=FILL_AREA_STYLE_COLOUR($,#485);
#483=COLOUR_RGB('',0.749019607843137,0.749019607843137,0.749019607843137);
#484=COLOUR_RGB('',1.,1.,1.);
#485=COLOUR_RGB('',0.745098039215686,0.737254901960784,0.729411764705882);
ENDSEC;
END-ISO-10303-21;
