ISO-10303-21;
HEADER;
/* Generated by software containing ST-Developer
 * from STEP Tools, Inc. (www.steptools.com) 
 */

FILE_DESCRIPTION(
/* description */ (''),
/* implementation_level */ '2;1');

FILE_NAME(
/* name */ 
'J:\\Datasheets Geluiddempers\\Tekeningen Standaarddempers\\Website\\S
dhc - STP\\Sdhc 01 G.stp',
/* time_stamp */ '2015-01-21T09:18:50+01:00',
/* author */ ('Tekenkamer'),
/* organization */ (''),
/* preprocessor_version */ 'ST-DEVELOPER v15.6',
/* originating_system */ 'Autodesk Inventor 2015',
/* authorisation */ '');

FILE_SCHEMA (('AUTOMOTIVE_DESIGN { 1 0 10303 214 3 1 1 }'));
ENDSEC;

DATA;
#10=MECHANICAL_DESIGN_GEOMETRIC_PRESENTATION_REPRESENTATION('',(#16,#17,
#18),#272);
#11=DIMENSIONAL_EXPONENTS(0.,0.,0.,0.,0.,0.,0.);
#12=(
CONVERSION_BASED_UNIT('degree',#13)
NAMED_UNIT(#11)
PLANE_ANGLE_UNIT()
);
#13=PLANE_ANGLE_MEASURE_WITH_UNIT(PLANE_ANGLE_MEASURE(0.01745329252),#275);
#14=SHAPE_REPRESENTATION_RELATIONSHIP('SRR','None',#278,#15);
#15=ADVANCED_BREP_SHAPE_REPRESENTATION($,(#19,#20,#21),#271);
#16=STYLED_ITEM('',(#288),#19);
#17=STYLED_ITEM('',(#288),#20);
#18=STYLED_ITEM('',(#288),#21);
#19=MANIFOLD_SOLID_BREP('EINDSCHOT',#154);
#20=MANIFOLD_SOLID_BREP('EINDSCHOT_1',#155);
#21=MANIFOLD_SOLID_BREP('ROMP',#156);
#22=PLANE('',#164);
#23=PLANE('',#165);
#24=PLANE('',#172);
#25=PLANE('',#173);
#26=PLANE('',#180);
#27=PLANE('',#181);
#28=FACE_BOUND('',#53,.T.);
#29=FACE_BOUND('',#55,.T.);
#30=FACE_BOUND('',#57,.T.);
#31=FACE_BOUND('',#59,.T.);
#32=FACE_BOUND('',#61,.T.);
#33=FACE_BOUND('',#63,.T.);
#34=FACE_BOUND('',#65,.T.);
#35=FACE_BOUND('',#67,.T.);
#36=FACE_BOUND('',#69,.T.);
#37=FACE_BOUND('',#71,.T.);
#38=FACE_BOUND('',#73,.T.);
#39=FACE_BOUND('',#75,.T.);
#40=FACE_OUTER_BOUND('',#52,.T.);
#41=FACE_OUTER_BOUND('',#54,.T.);
#42=FACE_OUTER_BOUND('',#56,.T.);
#43=FACE_OUTER_BOUND('',#58,.T.);
#44=FACE_OUTER_BOUND('',#60,.T.);
#45=FACE_OUTER_BOUND('',#62,.T.);
#46=FACE_OUTER_BOUND('',#64,.T.);
#47=FACE_OUTER_BOUND('',#66,.T.);
#48=FACE_OUTER_BOUND('',#68,.T.);
#49=FACE_OUTER_BOUND('',#70,.T.);
#50=FACE_OUTER_BOUND('',#72,.T.);
#51=FACE_OUTER_BOUND('',#74,.T.);
#52=EDGE_LOOP('',(#112));
#53=EDGE_LOOP('',(#113));
#54=EDGE_LOOP('',(#114));
#55=EDGE_LOOP('',(#115));
#56=EDGE_LOOP('',(#116));
#57=EDGE_LOOP('',(#117));
#58=EDGE_LOOP('',(#118));
#59=EDGE_LOOP('',(#119));
#60=EDGE_LOOP('',(#120));
#61=EDGE_LOOP('',(#121));
#62=EDGE_LOOP('',(#122));
#63=EDGE_LOOP('',(#123));
#64=EDGE_LOOP('',(#124));
#65=EDGE_LOOP('',(#125));
#66=EDGE_LOOP('',(#126));
#67=EDGE_LOOP('',(#127));
#68=EDGE_LOOP('',(#128));
#69=EDGE_LOOP('',(#129));
#70=EDGE_LOOP('',(#130));
#71=EDGE_LOOP('',(#131));
#72=EDGE_LOOP('',(#132));
#73=EDGE_LOOP('',(#133));
#74=EDGE_LOOP('',(#134));
#75=EDGE_LOOP('',(#135));
#76=CIRCLE('',#159,17.8);
#77=CIRCLE('',#160,17.8);
#78=CIRCLE('',#162,85.);
#79=CIRCLE('',#163,85.);
#80=CIRCLE('',#167,17.8);
#81=CIRCLE('',#168,17.8);
#82=CIRCLE('',#170,85.);
#83=CIRCLE('',#171,85.);
#84=CIRCLE('',#175,77.5);
#85=CIRCLE('',#176,77.5);
#86=CIRCLE('',#178,79.);
#87=CIRCLE('',#179,79.);
#88=VERTEX_POINT('',#234);
#89=VERTEX_POINT('',#236);
#90=VERTEX_POINT('',#239);
#91=VERTEX_POINT('',#241);
#92=VERTEX_POINT('',#246);
#93=VERTEX_POINT('',#248);
#94=VERTEX_POINT('',#251);
#95=VERTEX_POINT('',#253);
#96=VERTEX_POINT('',#258);
#97=VERTEX_POINT('',#260);
#98=VERTEX_POINT('',#263);
#99=VERTEX_POINT('',#265);
#100=EDGE_CURVE('',#88,#88,#76,.T.);
#101=EDGE_CURVE('',#89,#89,#77,.T.);
#102=EDGE_CURVE('',#90,#90,#78,.T.);
#103=EDGE_CURVE('',#91,#91,#79,.T.);
#104=EDGE_CURVE('',#92,#92,#80,.T.);
#105=EDGE_CURVE('',#93,#93,#81,.T.);
#106=EDGE_CURVE('',#94,#94,#82,.T.);
#107=EDGE_CURVE('',#95,#95,#83,.T.);
#108=EDGE_CURVE('',#96,#96,#84,.T.);
#109=EDGE_CURVE('',#97,#97,#85,.T.);
#110=EDGE_CURVE('',#98,#98,#86,.T.);
#111=EDGE_CURVE('',#99,#99,#87,.T.);
#112=ORIENTED_EDGE('',*,*,#100,.F.);
#113=ORIENTED_EDGE('',*,*,#101,.F.);
#114=ORIENTED_EDGE('',*,*,#102,.T.);
#115=ORIENTED_EDGE('',*,*,#103,.F.);
#116=ORIENTED_EDGE('',*,*,#102,.F.);
#117=ORIENTED_EDGE('',*,*,#100,.T.);
#118=ORIENTED_EDGE('',*,*,#103,.T.);
#119=ORIENTED_EDGE('',*,*,#101,.T.);
#120=ORIENTED_EDGE('',*,*,#104,.F.);
#121=ORIENTED_EDGE('',*,*,#105,.F.);
#122=ORIENTED_EDGE('',*,*,#106,.T.);
#123=ORIENTED_EDGE('',*,*,#107,.F.);
#124=ORIENTED_EDGE('',*,*,#106,.F.);
#125=ORIENTED_EDGE('',*,*,#104,.T.);
#126=ORIENTED_EDGE('',*,*,#107,.T.);
#127=ORIENTED_EDGE('',*,*,#105,.T.);
#128=ORIENTED_EDGE('',*,*,#108,.F.);
#129=ORIENTED_EDGE('',*,*,#109,.F.);
#130=ORIENTED_EDGE('',*,*,#110,.T.);
#131=ORIENTED_EDGE('',*,*,#111,.F.);
#132=ORIENTED_EDGE('',*,*,#110,.F.);
#133=ORIENTED_EDGE('',*,*,#108,.T.);
#134=ORIENTED_EDGE('',*,*,#111,.T.);
#135=ORIENTED_EDGE('',*,*,#109,.T.);
#136=CYLINDRICAL_SURFACE('',#158,17.8);
#137=CYLINDRICAL_SURFACE('',#161,85.);
#138=CYLINDRICAL_SURFACE('',#166,17.8);
#139=CYLINDRICAL_SURFACE('',#169,85.);
#140=CYLINDRICAL_SURFACE('',#174,77.5);
#141=CYLINDRICAL_SURFACE('',#177,79.);
#142=ADVANCED_FACE('',(#40,#28),#136,.F.);
#143=ADVANCED_FACE('',(#41,#29),#137,.T.);
#144=ADVANCED_FACE('',(#42,#30),#22,.F.);
#145=ADVANCED_FACE('',(#43,#31),#23,.T.);
#146=ADVANCED_FACE('',(#44,#32),#138,.F.);
#147=ADVANCED_FACE('',(#45,#33),#139,.T.);
#148=ADVANCED_FACE('',(#46,#34),#24,.F.);
#149=ADVANCED_FACE('',(#47,#35),#25,.T.);
#150=ADVANCED_FACE('',(#48,#36),#140,.F.);
#151=ADVANCED_FACE('',(#49,#37),#141,.T.);
#152=ADVANCED_FACE('',(#50,#38),#26,.F.);
#153=ADVANCED_FACE('',(#51,#39),#27,.T.);
#154=CLOSED_SHELL('',(#142,#143,#144,#145));
#155=CLOSED_SHELL('',(#146,#147,#148,#149));
#156=CLOSED_SHELL('',(#150,#151,#152,#153));
#157=AXIS2_PLACEMENT_3D('placement',#232,#182,#183);
#158=AXIS2_PLACEMENT_3D('',#233,#184,#185);
#159=AXIS2_PLACEMENT_3D('',#235,#186,#187);
#160=AXIS2_PLACEMENT_3D('',#237,#188,#189);
#161=AXIS2_PLACEMENT_3D('',#238,#190,#191);
#162=AXIS2_PLACEMENT_3D('',#240,#192,#193);
#163=AXIS2_PLACEMENT_3D('',#242,#194,#195);
#164=AXIS2_PLACEMENT_3D('',#243,#196,#197);
#165=AXIS2_PLACEMENT_3D('',#244,#198,#199);
#166=AXIS2_PLACEMENT_3D('',#245,#200,#201);
#167=AXIS2_PLACEMENT_3D('',#247,#202,#203);
#168=AXIS2_PLACEMENT_3D('',#249,#204,#205);
#169=AXIS2_PLACEMENT_3D('',#250,#206,#207);
#170=AXIS2_PLACEMENT_3D('',#252,#208,#209);
#171=AXIS2_PLACEMENT_3D('',#254,#210,#211);
#172=AXIS2_PLACEMENT_3D('',#255,#212,#213);
#173=AXIS2_PLACEMENT_3D('',#256,#214,#215);
#174=AXIS2_PLACEMENT_3D('',#257,#216,#217);
#175=AXIS2_PLACEMENT_3D('',#259,#218,#219);
#176=AXIS2_PLACEMENT_3D('',#261,#220,#221);
#177=AXIS2_PLACEMENT_3D('',#262,#222,#223);
#178=AXIS2_PLACEMENT_3D('',#264,#224,#225);
#179=AXIS2_PLACEMENT_3D('',#266,#226,#227);
#180=AXIS2_PLACEMENT_3D('',#267,#228,#229);
#181=AXIS2_PLACEMENT_3D('',#268,#230,#231);
#182=DIRECTION('axis',(0.,0.,1.));
#183=DIRECTION('refdir',(1.,0.,0.));
#184=DIRECTION('center_axis',(0.,0.,1.));
#185=DIRECTION('ref_axis',(-1.,0.,0.));
#186=DIRECTION('center_axis',(0.,0.,-1.));
#187=DIRECTION('ref_axis',(-1.,0.,0.));
#188=DIRECTION('center_axis',(0.,0.,1.));
#189=DIRECTION('ref_axis',(-1.,0.,0.));
#190=DIRECTION('center_axis',(0.,0.,1.));
#191=DIRECTION('ref_axis',(-1.,0.,0.));
#192=DIRECTION('center_axis',(0.,0.,-1.));
#193=DIRECTION('ref_axis',(-1.,0.,0.));
#194=DIRECTION('center_axis',(0.,0.,-1.));
#195=DIRECTION('ref_axis',(-1.,0.,0.));
#196=DIRECTION('center_axis',(0.,0.,-1.));
#197=DIRECTION('ref_axis',(-1.,0.,0.));
#198=DIRECTION('center_axis',(0.,0.,-1.));
#199=DIRECTION('ref_axis',(-1.,0.,0.));
#200=DIRECTION('center_axis',(0.,0.,1.));
#201=DIRECTION('ref_axis',(-1.,0.,0.));
#202=DIRECTION('center_axis',(0.,0.,-1.));
#203=DIRECTION('ref_axis',(-1.,0.,0.));
#204=DIRECTION('center_axis',(0.,0.,1.));
#205=DIRECTION('ref_axis',(-1.,0.,0.));
#206=DIRECTION('center_axis',(0.,0.,1.));
#207=DIRECTION('ref_axis',(-1.,0.,0.));
#208=DIRECTION('center_axis',(0.,0.,-1.));
#209=DIRECTION('ref_axis',(-1.,0.,0.));
#210=DIRECTION('center_axis',(0.,0.,-1.));
#211=DIRECTION('ref_axis',(-1.,0.,0.));
#212=DIRECTION('center_axis',(0.,0.,-1.));
#213=DIRECTION('ref_axis',(-1.,0.,0.));
#214=DIRECTION('center_axis',(0.,0.,-1.));
#215=DIRECTION('ref_axis',(-1.,0.,0.));
#216=DIRECTION('center_axis',(0.,0.,1.));
#217=DIRECTION('ref_axis',(-1.,0.,0.));
#218=DIRECTION('center_axis',(0.,0.,-1.));
#219=DIRECTION('ref_axis',(-1.,0.,0.));
#220=DIRECTION('center_axis',(0.,0.,1.));
#221=DIRECTION('ref_axis',(-1.,0.,0.));
#222=DIRECTION('center_axis',(0.,0.,1.));
#223=DIRECTION('ref_axis',(-1.,0.,0.));
#224=DIRECTION('center_axis',(0.,0.,-1.));
#225=DIRECTION('ref_axis',(-1.,0.,0.));
#226=DIRECTION('center_axis',(0.,0.,-1.));
#227=DIRECTION('ref_axis',(-1.,0.,0.));
#228=DIRECTION('center_axis',(0.,0.,-1.));
#229=DIRECTION('ref_axis',(-1.,0.,0.));
#230=DIRECTION('center_axis',(0.,0.,-1.));
#231=DIRECTION('ref_axis',(-1.,0.,0.));
#232=CARTESIAN_POINT('',(0.,0.,0.));
#233=CARTESIAN_POINT('Origin',(0.,0.,-3.));
#234=CARTESIAN_POINT('',(17.8,0.,0.));
#235=CARTESIAN_POINT('Origin',(0.,0.,0.));
#236=CARTESIAN_POINT('',(17.8,0.,-3.));
#237=CARTESIAN_POINT('Origin',(0.,0.,-3.));
#238=CARTESIAN_POINT('Origin',(0.,0.,-3.));
#239=CARTESIAN_POINT('',(85.,0.,0.));
#240=CARTESIAN_POINT('Origin',(0.,0.,0.));
#241=CARTESIAN_POINT('',(85.,0.,-3.));
#242=CARTESIAN_POINT('Origin',(0.,0.,-3.));
#243=CARTESIAN_POINT('Origin',(0.,0.,0.));
#244=CARTESIAN_POINT('Origin',(0.,0.,-3.));
#245=CARTESIAN_POINT('Origin',(0.,0.,490.));
#246=CARTESIAN_POINT('',(17.8,0.,493.));
#247=CARTESIAN_POINT('Origin',(0.,0.,493.));
#248=CARTESIAN_POINT('',(17.8,0.,490.));
#249=CARTESIAN_POINT('Origin',(0.,0.,490.));
#250=CARTESIAN_POINT('Origin',(0.,0.,490.));
#251=CARTESIAN_POINT('',(85.,0.,493.));
#252=CARTESIAN_POINT('Origin',(0.,0.,493.));
#253=CARTESIAN_POINT('',(85.,0.,490.));
#254=CARTESIAN_POINT('Origin',(0.,0.,490.));
#255=CARTESIAN_POINT('Origin',(0.,0.,493.));
#256=CARTESIAN_POINT('Origin',(0.,0.,490.));
#257=CARTESIAN_POINT('Origin',(0.,0.,0.));
#258=CARTESIAN_POINT('',(77.5,0.,490.));
#259=CARTESIAN_POINT('Origin',(0.,0.,490.));
#260=CARTESIAN_POINT('',(77.5,0.,0.));
#261=CARTESIAN_POINT('Origin',(0.,0.,0.));
#262=CARTESIAN_POINT('Origin',(0.,0.,0.));
#263=CARTESIAN_POINT('',(79.,0.,490.));
#264=CARTESIAN_POINT('Origin',(0.,0.,490.));
#265=CARTESIAN_POINT('',(79.,0.,0.));
#266=CARTESIAN_POINT('Origin',(0.,0.,0.));
#267=CARTESIAN_POINT('Origin',(0.,0.,490.));
#268=CARTESIAN_POINT('Origin',(0.,0.,0.));
#269=UNCERTAINTY_MEASURE_WITH_UNIT(LENGTH_MEASURE(0.01),#273,
'DISTANCE_ACCURACY_VALUE',
'Maximum model space distance between geometric entities at asserted c
onnectivities');
#270=UNCERTAINTY_MEASURE_WITH_UNIT(LENGTH_MEASURE(1.E-6),#273,
'DISTANCE_ACCURACY_VALUE',
'Maximum model space distance between geometric entities at asserted c
onnectivities');
#271=(
GEOMETRIC_REPRESENTATION_CONTEXT(3)
GLOBAL_UNCERTAINTY_ASSIGNED_CONTEXT((#269))
GLOBAL_UNIT_ASSIGNED_CONTEXT((#273,#275,#274))
REPRESENTATION_CONTEXT('','3D')
);
#272=(
GEOMETRIC_REPRESENTATION_CONTEXT(3)
GLOBAL_UNCERTAINTY_ASSIGNED_CONTEXT((#270))
GLOBAL_UNIT_ASSIGNED_CONTEXT((#273,#12,#274))
REPRESENTATION_CONTEXT('','3D')
);
#273=(
LENGTH_UNIT()
NAMED_UNIT(*)
SI_UNIT(.MILLI.,.METRE.)
);
#274=(
NAMED_UNIT(*)
SI_UNIT($,.STERADIAN.)
SOLID_ANGLE_UNIT()
);
#275=(
NAMED_UNIT(*)
PLANE_ANGLE_UNIT()
SI_UNIT($,.RADIAN.)
);
#276=SHAPE_DEFINITION_REPRESENTATION(#277,#278);
#277=PRODUCT_DEFINITION_SHAPE('',$,#280);
#278=SHAPE_REPRESENTATION('',(#157),#271);
#279=PRODUCT_DEFINITION_CONTEXT('part definition',#284,'design');
#280=PRODUCT_DEFINITION('MAAT3D','MAAT3D',#281,#279);
#281=PRODUCT_DEFINITION_FORMATION('',$,#286);
#282=PRODUCT_RELATED_PRODUCT_CATEGORY('MAAT3D','MAAT3D',(#286));
#283=APPLICATION_PROTOCOL_DEFINITION('international standard',
'automotive_design',2009,#284);
#284=APPLICATION_CONTEXT(
'Core Data for Automotive Mechanical Design Process');
#285=PRODUCT_CONTEXT('part definition',#284,'mechanical');
#286=PRODUCT('MAAT3D','MAAT3D',$,(#285));
#287=PRESENTATION_STYLE_ASSIGNMENT((#289));
#288=PRESENTATION_STYLE_ASSIGNMENT((#290));
#289=SURFACE_STYLE_USAGE(.BOTH.,#291);
#290=SURFACE_STYLE_USAGE(.BOTH.,#292);
#291=SURFACE_SIDE_STYLE($,(#293));
#292=SURFACE_SIDE_STYLE($,(#294));
#293=SURFACE_STYLE_FILL_AREA(#295);
#294=SURFACE_STYLE_FILL_AREA(#296);
#295=FILL_AREA_STYLE($,(#297));
#296=FILL_AREA_STYLE($,(#298));
#297=FILL_AREA_STYLE_COLOUR($,#299);
#298=FILL_AREA_STYLE_COLOUR($,#300);
#299=COLOUR_RGB('',0.749019607843137,0.749019607843137,0.749019607843137);
#300=COLOUR_RGB('',1.,1.,1.);
ENDSEC;
END-ISO-10303-21;
